Curso de Violão Completo Aprenda Violão sem sair de casa, no horário que desejar.

Ebook Grátis Violão Para você dar os seus primeiros passos no violão.

Nada normal – Victor e Leo ( aula de violão)

Nada normal – Victor e Leo ( aula de violão)

Nada Normal

Victor e Leo

 Victor e Leo
Tom: G
Capotraste na 2ª casa        
(capo 2ª casa)

(intro)

(1ª parte)

E|------------------|
B|--0h1p0-----------|
G|--------0------0--|
D|-----------Oh2----|
A|------------------|
E|------------------|


(2ª parte)

E|------------------0------------|
B|-----------1--------------1----|
G|---------2------2-------2------|
D|-------2------2-------2-----2--|
A|----0-------------0------------|
E|-------------------------------|


(3ª parte)

         D
E|---------2---------------|
B|-------3-----------------|
G|-----2-------------------|
D|---0------0--------------|
A|-------------------------|
E|-------------------------|


(4ª parte)

E|------------------|
B|--0h1p0-----------|
G|--------0------0--|
D|-----------Oh2----|
A|------------------|
E|------------------|


(5ª parte)

       G                        G/B
E|-------------------------------------|
B|-0------0----1-------1----3-----3----|
G|------0------------0----------0------|
D|----0-----0------0-----0----0-----0--|
A|--------------------------2----------|
E|-3-----------3-----------------------|


(final)

       G                        G
E|--------------------------3---------|
B|-0------0----1-------1----0---------|
G|------0------------0------0---------|
D|----0-----0------0-----0--0---------|
A|--------------------------2---------|
E|-3-----------3------------3---------|


(1ª parte)


       G                        C                             Am
E|--------------3--------------------------3------------------|
B|--------0-----------0------------1--------------------------|
G|------0-----0-----0-----0------0-----0--------0------0------|
D|----0-----0-----0-----0------2-----2--------2------0-------2|
A|---------------------------3-------------3-------2-------0--|
E|--3-----------3---------------------------------------------|



                            D9/F#                    G
E|----------0-------------------------0-------------------------|
B|----1------------1------------3-----------3------------0------|
G|--2----2-------2-----2------2-----2-----2------2-----0-----0--|
D|-----2-------2-----2------0-----0-----0------0-----0-----0----|
A|----------0---------------------------------------------------|
E|-----------------------2-----------2------------3-------------|



                     Am                           D9/F#
E|--3--------------------------0----------------------------|
B|--------0-------------1-------------1--------------3------|
G|------0------0------2-----2-------2-----2--------2-----2--|
D|----0------0------2-----2-------2-----2--------0-----0----|
A|----------------0------------0----------------------------|
E|--3------------------------------------------2------------|



                 G                       C
E|0-----------------------3-----------------------3-------------|
B|------3-----------0-----------0-----------1-------------------|
G|----2-----2-----0-----0-----0-----0-----0-----0------0-----0--|
D|--0-----0-----0-----0-----0-----0-----2-----2------2-----0----|
A|------------------------------------3-----------3------2------|
E|2-----------3-----------3-------------------------------------|



     Am                        D9/F#
E|------------0----------------------0-----------------|
B|-------1----------1----------3------------3----------|
G|-----2----2-----2----2-----2-----2------2-----2------|
D|---2----2-----2----2-----0-----0------0-----0--------|
A|-0----------0----------------------------------------|
E|-----------------------2-----------2-----------------|



                             G
E|-3---------3-------------3------------------------------------|
B|-----0------------0------0------------------------------------|
G|----0----0------0-----0--0------------------------------------|
D|---0---0------0-----0----0------------------------------------|
A|-------------------------2------------------------------------|
E|-3---------3-------------3------------------------------------|


(passagem da 1ª parte)

(na primeira parte da música,toda vez que aparecer o acorde de C
antes do Am , nós vamos fazer da seguinte forma)


           C                            Am
E|----------------3---------------------------0------------------|
B|--------1-----------------------------1------------------------|
G|------0------0--------0------0------2-----2--------------------|
D|----2------2--------2------0------2-----2----------------------|
A|--3-------------3--------2------0-----------0------------------|
E|---------------------------------------------------------------|


                  G
Lareira pra acender
                  C
Um céu pra se olhar
Am                          D9/F#
E tudo está tranquilo por aqui
               G
Você vai me vencer
                Am
Eu vou me apaixonar
D9/F#             G      C
Não há mais o que decidir

Am   D9/F#    G
iiieee

(refrão)

(base) C D G Am D9/F# G7


    C                           D                        G
E|-3------------3--------------------2--------------------------|
B|-------1-------------1-----------3---3----------------------0-|
G|-----0-----0-------0------0----2---------------0-2-0------0---|
D|---2-----2-------2------2----0----------0h4-4-----------0-----|
A|-3------------3-----------------------------------------------|
E|------------------------------------------------------3-------|



                      C                           Am
E|------3-------------------------3----------------------------|
B|------------0------------1---------------------------1-------|
G|---0-------0-----0-----0-----0--------0------0-----2------2--|
D|-0-------0-----0-----2-----2--------2------0-----2------2----|
A|-------------------3------------3--------2-----0-------------|
E|------3------------------------------------------------------|



                    D9/F#                 G
E|-0--------------------------0--------------------3------------|
B|--------1--------------3-----------3-------------------0------|
G|------2-----2--------2----2-----2-----2---0----------0------0-|
D|----2-----2--------0----0-----0-----0--------------0------0---|
A|-0------------------------------------------------------------|
E|-----------------2----------2--------------------3------------|



                      G7
E|-------3------------1-------------1---------------------------|
B|--------------0-------------0-------------0-------------0-----|
G|------------0-----0------0-----0-------0-----0-------0-----0--|
D|----------0-----0------0-----0-------0-----0------------------|
A|--------------------------------------------------------------|
E|-------3------------3-------------3---------------------------|



    C                           D                        G
E|--------------3--------------------2--------------------------|
B|-------1-------------1-----------3---3----------------------0-|
G|-----0-----0-------0------0----2---------------0-2-0------0---|
D|---2-----2-------2------2----0----------0h4-4-----------0-----|
A|-3------------3-----------------------------------------------|
E|------------------------------------------------------3-------|



                      C                             Am
E|----3----------------------------3-----------------------------|
B|----------0---------------1----------------------------1-------|
G|--0-----0------0--------0-----0-------0------0-------2------2--|
D|0------0------0-------2-----2-------2------0-------2-----2-----|
A|-------------------3-------------3-------2-------0-------------|
E|----3----------------------------------------------------------|


                                                        (intro)

                    D9/F#        G
E|-0------------------------0-----------------------------------------|
B|--------1------------3----------3------------0-------0h1p0----------|
G|------2-----2------2----2-----2----2-------0---0-----------0-----0--|
D|----2-----2------0----0-----0----0-------0-------0-----------0h2----|
A|-0------------------------------------------------------------------|
E|---------------2----------2------------3----------------------------|


(passagem do refrão)


(entre os acordes de D e G , nós temos uma passagem que é feita dessa forma)
E|------------------------------3---------------------|
B|-----------------------0------------0---------------|
G|----------0-2-0------0-----0------0-----0-----------|
D|---0h4-4-----------0-----0------0-----0-------------|
A|----------------------------------------------------|
E|-----------------3------------3---------------------|


                C                         D
Os nossos lábios todas as palavras nada dizem
             G                             C
Aos nossos olhos tudo o que já vimos foi vertigem
             Am
É tudo tão real
D   G/B       G          G7
Mas nada normal
                    C                         D
Te lembro e já me sinto ao seu lado, no seu mundo
                   G                       C
Me identifico com você de um jeito tão profundo
                Am
E é tudo tão real
D    G/B      G
Mas nada normal

(repete intro)
               G
Você vai me vencer
               Am
Eu vou me apaixonar
D9/F#               G        C   Am  D  G
Não há mais o que decidir    iiieee

(refrão)
                 C
Dos nossos lábios todas as palavras
       D
Nada dizem
                  G                      C
Aos nossos olhos tudo que já vimos foi vertigem
              Am  D
E é tudo tão real
   G/B       G           G7
Mas nada normal
                    C                         D
Te lembro e já me sinto ao seu lado, no seu mundo
                  G                       C
Me identifico com você de um jeito tão profundo
                Am
E é tudo tão real
D    G/B      C
Mas nada normal

(final)                                     Eiiiee..


     C                  G/B              Am7                G
E|----------3-----------------3----------------3---------3-------|
B|-------1--------1---------3-------3--------1--------1--0-------|
G|-----0--------0---------0-------0--------0--------0----0-------|
D|---2--------2---------0-------0--------2--------2------0-------|
A|-3--------3---------2-------2--------0-------0---------2-------|
E|-------------------------------------------------------3-------|



                                 C                 G/B
E|------------------------------------3-----------------3--------|
B|--0h1p0---------------------------1--------1--------3-------3--|
G|--------0-----0---------0-------0--------0--------0-------0----|
D|----------0h2-------0h2-------2--------2--------0-------0------|
A|-----------------0h2--------3-------3---------2-------2--------|
E|---------------------------------------------------------------|



      G/Bb            Am7               G
E|---------3----------------3--------3---------------------------|
B|-------3-------3--------1------1---0---------------------------|
G|-----0-------0--------0------0-----0---------------------------|
D|---0-------0--------2------2-------0---------------------------|
A|-1-------1--------0----------------2---------------------------|
E|-----------------------------------3---------------------------|


Eiee
( C  G/B Am7 G )
( C  G/B G/Bb Am7 G )

Receba nossos artigos

*

6 aulas de exercícios de violão

13 aulas de violão iniciante

7 aulas de Violão com Beatles

11 aulas de acordes de violão

7 aulas para evoluir no violão

Sobre nós:

A Primeiros Acordes tem como objetivo ensinar você a aprender a tocar no conforto de sua casa, com aulas, cursos, vídeo-aulas, métodos voltados para o aprendizado online.

Contato

Primeiros Acordes

Email: marcos.dupra@globo.com

Horário: 9:00 ás 18:00 hs

Não temos loja física